ISO-10303-21;
HEADER;
FILE_DESCRIPTION (( 'STEP AP203' ),
    '1' );
FILE_NAME ('QM-CAHWP-10-900-2100-M.STEP',
    '2021-01-05T02:34:35',
    ( '' ),
    ( '' ),
    'SwSTEP 2.0',
    'SolidWorks 2020',
    '' );
FILE_SCHEMA (( 'CONFIG_CONTROL_DESIGN' ));
ENDSEC;

DATA;
#1 = ORIENTED_EDGE ( 'NONE', *, *, #8, .F. ) ;
#2 = CIRCLE ( 'NONE', #226, 5.000000000000000000 ) ;
#3 = LOCAL_TIME ( 10, 34, 35.00000000000000000, #218 ) ;
#4 = CARTESIAN_POINT ( 'NONE',  ( 0.5000000000000004441, 0.000000000000000000, 0.000000000000000000 ) ) ;
#5 = VERTEX_POINT ( 'NONE', #86 ) ;
#6 = DIRECTION ( 'NONE',  ( 1.000000000000000000, 0.000000000000000000, 0.000000000000000000 ) ) ;
#7 = CARTESIAN_POINT ( 'NONE',  ( -1.614212418857619014, 0.000000000000000000, 0.000000000000000000 ) ) ;
#8 = EDGE_CURVE ( 'NONE', #273, #255, #34, .T. ) ;
#9 = CARTESIAN_POINT ( 'NONE',  ( -1.614212418857619014, 0.000000000000000000, 0.000000000000000000 ) ) ;
#10 = DIRECTION ( 'NONE',  ( -1.000000000000000000, -0.000000000000000000, -0.000000000000000000 ) ) ;
#11 = COORDINATED_UNIVERSAL_TIME_OFFSET ( 8, 0, .AHEAD. ) ;
#12 = DIRECTION ( 'NONE',  ( -1.000000000000000000, -0.000000000000000000, -0.000000000000000000 ) ) ;
#13 = CYLINDRICAL_SURFACE ( 'NONE', #118, 12.69999999999999929 ) ;
#14 = DIRECTION ( 'NONE',  ( 0.000000000000000000, 0.000000000000000000, -1.000000000000000000 ) ) ;
#15 = CC_DESIGN_PERSON_AND_ORGANIZATION_ASSIGNMENT ( #45, #143, ( #284 ) ) ;
#16 = CARTESIAN_POINT ( 'NONE',  ( 3.000000000000000000, 0.000000000000000000, 0.000000000000000000 ) ) ;
#17 = PERSON_AND_ORGANIZATION ( #149, #197 ) ;
#18 = AXIS2_PLACEMENT_3D ( 'NONE', #311, #6, #151 ) ;
#19 = EDGE_CURVE ( 'NONE', #283, #312, #241, .T. ) ;
#20 = CARTESIAN_POINT ( 'NONE',  ( -3.000000000000000000, 6.123233995736766282E-16, -5.000000000000000000 ) ) ;
#21 = CARTESIAN_POINT ( 'NONE',  ( -3.000000000000000000, 0.000000000000000000, 0.000000000000000000 ) ) ;
#22 = CARTESIAN_POINT ( 'NONE',  ( 3.000000000000000000, 12.69999999999999929, 0.000000000000000000 ) ) ;
#23 = CIRCLE ( 'NONE', #195, 5.000000000000001776 ) ;
#24 = CC_DESIGN_APPROVAL ( #98, ( #26 ) ) ;
#25 = VECTOR ( 'NONE', #257, 1000.000000000000000 ) ;
#26 = PRODUCT_DEFINITION ( 'UNKNOWN', '', #271, #120 ) ;
#27 = DATE_AND_TIME ( #134, #125 ) ;
#28 = ORIENTED_EDGE ( 'NONE', *, *, #89, .T. ) ;
#29 = PERSON_AND_ORGANIZATION_ROLE ( 'creator' ) ;
#30 = CIRCLE ( 'NONE', #233, 5.000000000000001776 ) ;
#31 = PERSON_AND_ORGANIZATION ( #149, #197 ) ;
#32 = ORIENTED_EDGE ( 'NONE', *, *, #220, .T. ) ;
#33 = VERTEX_POINT ( 'NONE', #113 ) ;
#34 = LINE ( 'NONE', #232, #43 ) ;
#35 = APPROVAL_DATE_TIME ( #209, #303 ) ;
#36 = FACE_OUTER_BOUND ( 'NONE', #49, .T. ) ;
#37 = ORIENTED_EDGE ( 'NONE', *, *, #89, .F. ) ;
#38 = PERSON_AND_ORGANIZATION ( #149, #197 ) ;
#39 = DIRECTION ( 'NONE',  ( 0.000000000000000000, 0.000000000000000000, 1.000000000000000000 ) ) ;
#40 = FACE_BOUND ( 'NONE', #59, .T. ) ;
#41 = ORIENTED_EDGE ( 'NONE', *, *, #47, .T. ) ;
#42 = FACE_OUTER_BOUND ( 'NONE', #282, .T. ) ;
#43 = VECTOR ( 'NONE', #161, 1000.000000000000000 ) ;
#44 = CARTESIAN_POINT ( 'NONE',  ( 3.000000000000000000, 0.000000000000000000, 12.69999999999999929 ) ) ;
#45 = PERSON_AND_ORGANIZATION ( #149, #197 ) ;
#46 = APPLICATION_PROTOCOL_DEFINITION ( 'international standard', 'config_control_design', 1994, #288 ) ;
#47 = EDGE_CURVE ( 'NONE', #5, #312, #213, .T. ) ;
#48 = EDGE_CURVE ( 'NONE', #273, #51, #315, .T. ) ;
#49 = EDGE_LOOP ( 'NONE', ( #225, #83, #335, #305 ) ) ;
#50 = SECURITY_CLASSIFICATION ( '', '', #262 ) ;
#51 = VERTEX_POINT ( 'NONE', #208 ) ;
#52 = DIRECTION ( 'NONE',  ( -0.000000000000000000, 0.000000000000000000, 1.000000000000000000 ) ) ;
#53 = ORIENTED_EDGE ( 'NONE', *, *, #63, .T. ) ;
#54 = ADVANCED_FACE ( 'NONE', ( #42 ), #13, .T. ) ;
#55 = DIRECTION ( 'NONE',  ( 0.000000000000000000, 0.000000000000000000, 1.000000000000000000 ) ) ;
#56 = EDGE_LOOP ( 'NONE', ( #53, #128 ) ) ;
#57 = DATE_AND_TIME ( #265, #214 ) ;
#58 = DIRECTION ( 'NONE',  ( 1.000000000000000000, 0.000000000000000000, 0.000000000000000000 ) ) ;
#59 = EDGE_LOOP ( 'NONE', ( #174, #223 ) ) ;
#60 = ADVANCED_FACE ( 'NONE', ( #320 ), #90, .F. ) ;
#61 = CARTESIAN_POINT ( 'NONE',  ( -3.000000000000000000, 5.000000000000000000, 0.000000000000000000 ) ) ;
#62 = CIRCLE ( 'NONE', #269, 5.000000000000000000 ) ;
#63 = EDGE_CURVE ( 'NONE', #253, #283, #30, .T. ) ;
#64 = AXIS2_PLACEMENT_3D ( 'NONE', #181, #176, #55 ) ;
#65 = VECTOR ( 'NONE', #296, 1000.000000000000000 ) ;
#66 = DIRECTION ( 'NONE',  ( 0.000000000000000000, 0.000000000000000000, 1.000000000000000000 ) ) ;
#67 = AXIS2_PLACEMENT_3D ( 'NONE', #274, #142, #166 ) ;
#68 = APPROVAL_ROLE ( '' ) ;
#69 = EDGE_CURVE ( 'NONE', #51, #273, #206, .T. ) ;
#70 = DATE_TIME_ROLE ( 'creation_date' ) ;
#71 = AXIS2_PLACEMENT_3D ( 'NONE', #230, #109, #66 ) ;
#72 = EDGE_CURVE ( 'NONE', #285, #261, #268, .T. ) ;
#73 = CC_DESIGN_SECURITY_CLASSIFICATION ( #50, ( #271 ) ) ;
#74 = ORIENTED_EDGE ( 'NONE', *, *, #69, .T. ) ;
#75 = EDGE_CURVE ( 'NONE', #283, #253, #23, .T. ) ;
#76 = ORIENTED_EDGE ( 'NONE', *, *, #184, .F. ) ;
#77 = DIRECTION ( 'NONE',  ( -1.000000000000000000, 0.000000000000000000, -0.000000000000000000 ) ) ;
#78 = CYLINDRICAL_SURFACE ( 'NONE', #198, 12.69999999999999929 ) ;
#79 = ORIENTED_EDGE ( 'NONE', *, *, #191, .F. ) ;
#80 = EDGE_CURVE ( 'NONE', #281, #228, #62, .T. ) ;
#81 = DIRECTION ( 'NONE',  ( -0.000000000000000000, 0.000000000000000000, 1.000000000000000000 ) ) ;
#82 = LINE ( 'NONE', #235, #65 ) ;
#83 = ORIENTED_EDGE ( 'NONE', *, *, #184, .T. ) ;
#84 = PLANE ( 'NONE',  #152 ) ;
#85 = AXIS2_PLACEMENT_3D ( 'NONE', #298, #318, #158 ) ;
#86 = CARTESIAN_POINT ( 'NONE',  ( 0.5000000000000004441, 0.000000000000000000, 5.000000000000000000 ) ) ;
#87 = CC_DESIGN_APPROVAL ( #222, ( #50 ) ) ;
#88 = DIRECTION ( 'NONE',  ( -1.000000000000000000, -0.000000000000000000, -0.000000000000000000 ) ) ;
#89 = EDGE_CURVE ( 'NONE', #51, #33, #186, .T. ) ;
#90 = CYLINDRICAL_SURFACE ( 'NONE', #85, 5.000000000000000888 ) ;
#91 = DIRECTION ( 'NONE',  ( -1.000000000000000000, -0.000000000000000000, -0.000000000000000000 ) ) ;
#92 = CARTESIAN_POINT ( 'NONE',  ( -0.5000000000000002220, 0.000000000000000000, 0.000000000000000000 ) ) ;
#93 = CARTESIAN_POINT ( 'NONE',  ( 3.000000000000000000, 0.000000000000000000, 0.000000000000000000 ) ) ;
#94 = AXIS2_PLACEMENT_3D ( 'NONE', #279, #163, #248 ) ;
#95 = DIRECTION ( 'NONE',  ( -1.000000000000000000, -0.000000000000000000, -0.000000000000000000 ) ) ;
#96 = FACE_OUTER_BOUND ( 'NONE', #287, .T. ) ;
#97 = CARTESIAN_POINT ( 'NONE',  ( 3.000000000000000000, 0.000000000000000000, 5.000000000000001776 ) ) ;
#98 = APPROVAL ( #244, 'UNSPECIFIED' ) ;
#99 = ORIENTED_EDGE ( 'NONE', *, *, #141, .F. ) ;
#100 = EDGE_LOOP ( 'NONE', ( #130, #199, #333, #41 ) ) ;
#101 = ORIENTED_EDGE ( 'NONE', *, *, #48, .T. ) ;
#102 = ADVANCED_FACE ( 'NONE', ( #36 ), #183, .F. ) ;
#103 = ORIENTED_EDGE ( 'NONE', *, *, #138, .T. ) ;
#104 = VECTOR ( 'NONE', #323, 1000.000000000000000 ) ;
#105 = CARTESIAN_POINT ( 'NONE',  ( -3.000000000000000000, 0.000000000000000000, 5.000000000000000000 ) ) ;
#106 = EDGE_LOOP ( 'NONE', ( #136, #251 ) ) ;
#107 = DIRECTION ( 'NONE',  ( 0.000000000000000000, 0.000000000000000000, 1.000000000000000000 ) ) ;
#108 = FACE_OUTER_BOUND ( 'NONE', #106, .T. ) ;
#109 = DIRECTION ( 'NONE',  ( -1.000000000000000000, -0.000000000000000000, -0.000000000000000000 ) ) ;
#110 = LOCAL_TIME ( 10, 34, 35.00000000000000000, #245 ) ;
#111 = ADVANCED_FACE ( 'NONE', ( #175 ), #135, .F. ) ;
#112 = DIRECTION ( 'NONE',  ( 0.000000000000000000, 0.000000000000000000, 1.000000000000000000 ) ) ;
#113 = CARTESIAN_POINT ( 'NONE',  ( -3.000000000000000000, 1.555301434917138433E-15, -12.69999999999999929 ) ) ;
#114 = CARTESIAN_POINT ( 'NONE',  ( -1.614212418857619014, 0.000000000000000000, 0.000000000000000000 ) ) ;
#115 = CARTESIAN_POINT ( 'NONE',  ( 3.000000000000000000, 0.000000000000000000, 0.000000000000000000 ) ) ;
#116 = ADVANCED_FACE ( 'NONE', ( #108 ), #84, .F. ) ;
#117 = APPLICATION_CONTEXT ( 'configuration controlled 3d designs of mechanical parts and assemblies' ) ;
#118 = AXIS2_PLACEMENT_3D ( 'NONE', #7, #237, #39 ) ;
#119 = DATE_AND_TIME ( #304, #3 ) ;
#120 = DESIGN_CONTEXT ( 'detailed design', #288, 'design' ) ;
#121 = AXIS2_PLACEMENT_3D ( 'NONE', #92, #267, #14 ) ;
#122 = CALENDAR_DATE ( 2021, 5, 1 ) ;
#123 = CARTESIAN_POINT ( 'NONE',  ( 3.000000000000000000, 6.123233995736768255E-16, -5.000000000000001776 ) ) ;
#124 = PERSON_AND_ORGANIZATION ( #149, #197 ) ;
#125 = LOCAL_TIME ( 10, 34, 35.00000000000000000, #193 ) ;
#126 = ORIENTED_EDGE ( 'NONE', *, *, #19, .T. ) ;
#127 = COORDINATED_UNIVERSAL_TIME_OFFSET ( 8, 0, .AHEAD. ) ;
#128 = ORIENTED_EDGE ( 'NONE', *, *, #75, .T. ) ;
#129 = ADVANCED_FACE ( 'NONE', ( #40, #263 ), #207, .F. ) ;
#130 = ORIENTED_EDGE ( 'NONE', *, *, #19, .F. ) ;
#131 = DIRECTION ( 'NONE',  ( -1.000000000000000000, -0.000000000000000000, -0.000000000000000000 ) ) ;
#132 = CC_DESIGN_PERSON_AND_ORGANIZATION_ASSIGNMENT ( #31, #29, ( #271 ) ) ;
#133 = DIRECTION ( 'NONE',  ( -1.000000000000000000, -0.000000000000000000, -0.000000000000000000 ) ) ;
#134 = CALENDAR_DATE ( 2021, 5, 1 ) ;
#135 = CYLINDRICAL_SURFACE ( 'NONE', #64, 5.000000000000000888 ) ;
#136 = ORIENTED_EDGE ( 'NONE', *, *, #47, .F. ) ;
#137 = APPROVAL_DATE_TIME ( #57, #222 ) ;
#138 = EDGE_CURVE ( 'NONE', #255, #33, #316, .T. ) ;
#139 = DIRECTION ( 'NONE',  ( -1.000000000000000000, -0.000000000000000000, -0.000000000000000000 ) ) ;
#140 = CARTESIAN_POINT ( 'NONE',  ( -0.5000000000000002220, 0.000000000000000000, 0.000000000000000000 ) ) ;
#141 = EDGE_CURVE ( 'NONE', #261, #285, #162, .T. ) ;
#142 = DIRECTION ( 'NONE',  ( 0.000000000000000000, 0.000000000000000000, 1.000000000000000000 ) ) ;
#143 = PERSON_AND_ORGANIZATION_ROLE ( 'design_owner' ) ;
#144 = APPROVAL_DATE_TIME ( #119, #98 ) ;
#145 = CLOSED_SHELL ( 'NONE', ( #54, #102, #60, #116, #111, #321, #129, #202, #249, #234 ) ) ;
#146 = CARTESIAN_POINT ( 'NONE',  ( -0.5000000000000002220, 0.000000000000000000, 5.000000000000000888 ) ) ;
#147 = EDGE_LOOP ( 'NONE', ( #194, #155 ) ) ;
#148 = ORIENTED_EDGE ( 'NONE', *, *, #246, .T. ) ;
#149 = PERSON ( 'UNSPECIFIED', 'UNSPECIFIED', 'UNSPECIFIED', ('UNSPECIFIED'), ('UNSPECIFIED'), ('UNSPECIFIED') ) ;
#150 = DIRECTION ( 'NONE',  ( 0.000000000000000000, 0.000000000000000000, -1.000000000000000000 ) ) ;
#151 = DIRECTION ( 'NONE',  ( 0.000000000000000000, 0.000000000000000000, -1.000000000000000000 ) ) ;
#152 = AXIS2_PLACEMENT_3D ( 'NONE', #203, #231, #52 ) ;
#153 = DIRECTION ( 'NONE',  ( 0.000000000000000000, 0.000000000000000000, 1.000000000000000000 ) ) ;
#154 = CC_DESIGN_PERSON_AND_ORGANIZATION_ASSIGNMENT ( #215, #324, ( #26 ) ) ;
#155 = ORIENTED_EDGE ( 'NONE', *, *, #69, .F. ) ;
#156 = PERSON_AND_ORGANIZATION_ROLE ( 'design_supplier' ) ;
#157 = LINE ( 'NONE', #239, #247 ) ;
#158 = DIRECTION ( 'NONE',  ( 0.000000000000000000, 0.000000000000000000, 1.000000000000000000 ) ) ;
#159 = AXIS2_PLACEMENT_3D ( 'NONE', #93, #272, #212 ) ;
#160 = CARTESIAN_POINT ( 'NONE',  ( -3.000000000000000000, 0.000000000000000000, 0.000000000000000000 ) ) ;
#161 = DIRECTION ( 'NONE',  ( -1.000000000000000000, -0.000000000000000000, -0.000000000000000000 ) ) ;
#162 = CIRCLE ( 'NONE', #227, 5.000000000000000888 ) ;
#163 = DIRECTION ( 'NONE',  ( -1.000000000000000000, -0.000000000000000000, -0.000000000000000000 ) ) ;
#164 = CARTESIAN_POINT ( 'NONE',  ( -1.614212418857619014, 1.555301434917138433E-15, -12.69999999999999929 ) ) ;
#165 = PERSON_AND_ORGANIZATION ( #149, #197 ) ;
#166 = DIRECTION ( 'NONE',  ( 1.000000000000000000, 0.000000000000000000, 0.000000000000000000 ) ) ;
#167 = CARTESIAN_POINT ( 'NONE',  ( -3.000000000000000000, 0.000000000000000000, 12.69999999999999929 ) ) ;
#168 = AXIS2_PLACEMENT_3D ( 'NONE', #21, #219, #332 ) ;
#169 =( GEOMETRIC_REPRESENTATION_CONTEXT ( 3 ) GLOBAL_UNCERTAINTY_ASSIGNED_CONTEXT ( ( #242 ) ) GLOBAL_UNIT_ASSIGNED_CONTEXT ( ( #187, #327, #188 ) ) REPRESENTATION_CONTEXT ( 'NONE', 'WORKASPACE' ) );
#170 = SHAPE_DEFINITION_REPRESENTATION ( #224, #331 ) ;
#171 = ORIENTED_EDGE ( 'NONE', *, *, #211, .T. ) ;
#172 = ORIENTED_EDGE ( 'NONE', *, *, #141, .T. ) ;
#173 = LOCAL_TIME ( 10, 34, 35.00000000000000000, #11 ) ;
#174 = ORIENTED_EDGE ( 'NONE', *, *, #325, .F. ) ;
#175 = FACE_OUTER_BOUND ( 'NONE', #100, .T. ) ;
#176 = DIRECTION ( 'NONE',  ( -1.000000000000000000, -0.000000000000000000, -0.000000000000000000 ) ) ;
#177 = ORIENTED_EDGE ( 'NONE', *, *, #325, .T. ) ;
#178 = DIRECTION ( 'NONE',  ( -1.000000000000000000, -0.000000000000000000, -0.000000000000000000 ) ) ;
#179 = CC_DESIGN_APPROVAL ( #303, ( #271 ) ) ;
#180 = DIRECTION ( 'NONE',  ( -1.000000000000000000, -0.000000000000000000, -0.000000000000000000 ) ) ;
#181 = CARTESIAN_POINT ( 'NONE',  ( -1.614212418857619014, 0.000000000000000000, 0.000000000000000000 ) ) ;
#182 = CARTESIAN_POINT ( 'NONE',  ( 3.000000000000000000, 0.000000000000000000, 0.000000000000000000 ) ) ;
#183 = CYLINDRICAL_SURFACE ( 'NONE', #259, 5.000000000000000888 ) ;
#184 = EDGE_CURVE ( 'NONE', #261, #281, #157, .T. ) ;
#185 = VECTOR ( 'NONE', #10, 1000.000000000000000 ) ;
#186 = LINE ( 'NONE', #164, #104 ) ;
#187 =( LENGTH_UNIT ( ) NAMED_UNIT ( * ) SI_UNIT ( .MILLI., .METRE. ) );
#188 =( NAMED_UNIT ( * ) SI_UNIT ( $, .STERADIAN. ) SOLID_ANGLE_UNIT ( ) );
#189 = PLANE ( 'NONE',  #299 ) ;
#190 = CARTESIAN_POINT ( 'NONE',  ( 0.5000000000000004441, 6.123233995736766282E-16, -5.000000000000000000 ) ) ;
#191 = EDGE_CURVE ( 'NONE', #253, #5, #291, .T. ) ;
#192 = ORIENTED_EDGE ( 'NONE', *, *, #138, .F. ) ;
#193 = COORDINATED_UNIVERSAL_TIME_OFFSET ( 8, 0, .AHEAD. ) ;
#194 = ORIENTED_EDGE ( 'NONE', *, *, #48, .F. ) ;
#195 = AXIS2_PLACEMENT_3D ( 'NONE', #115, #180, #292 ) ;
#196 = AXIS2_PLACEMENT_3D ( 'NONE', #61, #58, #270 ) ;
#197 = ORGANIZATION ( 'UNSPECIFIED', 'UNSPECIFIED', '' ) ;
#198 = AXIS2_PLACEMENT_3D ( 'NONE', #114, #133, #229 ) ;
#199 = ORIENTED_EDGE ( 'NONE', *, *, #63, .F. ) ;
#200 = PLANE ( 'NONE',  #18 ) ;
#201 = ORIENTED_EDGE ( 'NONE', *, *, #246, .F. ) ;
#202 = ADVANCED_FACE ( 'NONE', ( #309 ), #78, .T. ) ;
#203 = CARTESIAN_POINT ( 'NONE',  ( 0.5000000000000002220, 5.000000000000000000, 0.000000000000000000 ) ) ;
#204 = DIRECTION ( 'NONE',  ( 0.000000000000000000, 0.000000000000000000, 1.000000000000000000 ) ) ;
#205 = APPROVAL_ROLE ( '' ) ;
#206 = CIRCLE ( 'NONE', #326, 12.69999999999999929 ) ;
#207 = PLANE ( 'NONE',  #196 ) ;
#208 = CARTESIAN_POINT ( 'NONE',  ( 3.000000000000000000, 1.555301434917138433E-15, -12.69999999999999929 ) ) ;
#209 = DATE_AND_TIME ( #289, #173 ) ;
#210 = FACE_OUTER_BOUND ( 'NONE', #307, .T. ) ;
#211 = EDGE_CURVE ( 'NONE', #285, #228, #82, .T. ) ;
#212 = DIRECTION ( 'NONE',  ( 0.000000000000000000, 0.000000000000000000, 1.000000000000000000 ) ) ;
#213 = CIRCLE ( 'NONE', #71, 5.000000000000000000 ) ;
#214 = LOCAL_TIME ( 10, 34, 35.00000000000000000, #127 ) ;
#215 = PERSON_AND_ORGANIZATION ( #149, #197 ) ;
#216 = CC_DESIGN_DATE_AND_TIME_ASSIGNMENT ( #27, #252, ( #50 ) ) ;
#217 = CYLINDRICAL_SURFACE ( 'NONE', #94, 5.000000000000000888 ) ;
#218 = COORDINATED_UNIVERSAL_TIME_OFFSET ( 8, 0, .AHEAD. ) ;
#219 = DIRECTION ( 'NONE',  ( -1.000000000000000000, -0.000000000000000000, -0.000000000000000000 ) ) ;
#220 = EDGE_CURVE ( 'NONE', #312, #5, #2, .T. ) ;
#221 = EDGE_LOOP ( 'NONE', ( #103, #148 ) ) ;
#222 = APPROVAL ( #306, 'UNSPECIFIED' ) ;
#223 = ORIENTED_EDGE ( 'NONE', *, *, #80, .F. ) ;
#224 = PRODUCT_DEFINITION_SHAPE ( 'NONE', 'NONE',  #26 ) ;
#225 = ORIENTED_EDGE ( 'NONE', *, *, #72, .T. ) ;
#226 = AXIS2_PLACEMENT_3D ( 'NONE', #4, #12, #112 ) ;
#227 = AXIS2_PLACEMENT_3D ( 'NONE', #140, #294, #150 ) ;
#228 = VERTEX_POINT ( 'NONE', #105 ) ;
#229 = DIRECTION ( 'NONE',  ( 0.000000000000000000, 0.000000000000000000, 1.000000000000000000 ) ) ;
#230 = CARTESIAN_POINT ( 'NONE',  ( 0.5000000000000004441, 0.000000000000000000, 0.000000000000000000 ) ) ;
#231 = DIRECTION ( 'NONE',  ( -1.000000000000000000, 0.000000000000000000, -0.000000000000000000 ) ) ;
#232 = CARTESIAN_POINT ( 'NONE',  ( -1.614212418857619014, 0.000000000000000000, 12.69999999999999929 ) ) ;
#233 = AXIS2_PLACEMENT_3D ( 'NONE', #182, #139, #204 ) ;
#234 = ADVANCED_FACE ( 'NONE', ( #210 ), #200, .F. ) ;
#235 = CARTESIAN_POINT ( 'NONE',  ( -1.614212418857619014, 0.000000000000000000, 5.000000000000000888 ) ) ;
#236 = APPROVAL_PERSON_ORGANIZATION ( #165, #303, #205 ) ;
#237 = DIRECTION ( 'NONE',  ( -1.000000000000000000, -0.000000000000000000, -0.000000000000000000 ) ) ;
#238 = CC_DESIGN_PERSON_AND_ORGANIZATION_ASSIGNMENT ( #250, #293, ( #50 ) ) ;
#239 = CARTESIAN_POINT ( 'NONE',  ( -1.614212418857619014, 6.123233995736767268E-16, -5.000000000000000888 ) ) ;
#240 = CARTESIAN_POINT ( 'NONE',  ( -1.614212418857619014, 6.123233995736767268E-16, -5.000000000000000888 ) ) ;
#241 = LINE ( 'NONE', #240, #185 ) ;
#242 = UNCERTAINTY_MEASURE_WITH_UNIT (LENGTH_MEASURE( 1.000000000000000082E-05 ), #187, 'distance_accuracy_value', 'NONE');
#243 = CIRCLE ( 'NONE', #280, 12.69999999999999929 ) ;
#244 = APPROVAL_STATUS ( 'not_yet_approved' ) ;
#245 = COORDINATED_UNIVERSAL_TIME_OFFSET ( 8, 0, .AHEAD. ) ;
#246 = EDGE_CURVE ( 'NONE', #33, #255, #243, .T. ) ;
#247 = VECTOR ( 'NONE', #131, 1000.000000000000000 ) ;
#248 = DIRECTION ( 'NONE',  ( 0.000000000000000000, 0.000000000000000000, 1.000000000000000000 ) ) ;
#249 = ADVANCED_FACE ( 'NONE', ( #260, #313 ), #189, .F. ) ;
#250 = PERSON_AND_ORGANIZATION ( #149, #197 ) ;
#251 = ORIENTED_EDGE ( 'NONE', *, *, #220, .F. ) ;
#252 = DATE_TIME_ROLE ( 'classification_date' ) ;
#253 = VERTEX_POINT ( 'NONE', #97 ) ;
#254 = APPROVAL_ROLE ( '' ) ;
#255 = VERTEX_POINT ( 'NONE', #167 ) ;
#256 = EDGE_LOOP ( 'NONE', ( #37, #74, #258, #201 ) ) ;
#257 = DIRECTION ( 'NONE',  ( -1.000000000000000000, -0.000000000000000000, -0.000000000000000000 ) ) ;
#258 = ORIENTED_EDGE ( 'NONE', *, *, #8, .T. ) ;
#259 = AXIS2_PLACEMENT_3D ( 'NONE', #9, #178, #153 ) ;
#260 = FACE_OUTER_BOUND ( 'NONE', #147, .T. ) ;
#261 = VERTEX_POINT ( 'NONE', #277 ) ;
#262 = SECURITY_CLASSIFICATION_LEVEL ( 'unclassified' ) ;
#263 = FACE_OUTER_BOUND ( 'NONE', #221, .T. ) ;
#264 = EDGE_LOOP ( 'NONE', ( #310, #126, #32, #79 ) ) ;
#265 = CALENDAR_DATE ( 2021, 5, 1 ) ;
#266 = CARTESIAN_POINT ( 'NONE',  ( -1.614212418857619014, 0.000000000000000000, 5.000000000000000888 ) ) ;
#267 = DIRECTION ( 'NONE',  ( 1.000000000000000000, 0.000000000000000000, 0.000000000000000000 ) ) ;
#268 = CIRCLE ( 'NONE', #121, 5.000000000000000888 ) ;
#269 = AXIS2_PLACEMENT_3D ( 'NONE', #297, #95, #301 ) ;
#270 = DIRECTION ( 'NONE',  ( 0.000000000000000000, 0.000000000000000000, -1.000000000000000000 ) ) ;
#271 = PRODUCT_DEFINITION_FORMATION_WITH_SPECIFIED_SOURCE ( 'ANY', '', #284, .NOT_KNOWN. ) ;
#272 = DIRECTION ( 'NONE',  ( -1.000000000000000000, -0.000000000000000000, -0.000000000000000000 ) ) ;
#273 = VERTEX_POINT ( 'NONE', #44 ) ;
#274 = CARTESIAN_POINT ( 'NONE',  ( 0.000000000000000000, 0.000000000000000000, 0.000000000000000000 ) ) ;
#275 = APPROVAL_STATUS ( 'not_yet_approved' ) ;
#276 = MECHANICAL_CONTEXT ( 'NONE', #117, 'mechanical' ) ;
#277 = CARTESIAN_POINT ( 'NONE',  ( -0.5000000000000002220, 6.123233995736767268E-16, -5.000000000000000888 ) ) ;
#278 = CC_DESIGN_PERSON_AND_ORGANIZATION_ASSIGNMENT ( #38, #156, ( #271 ) ) ;
#279 = CARTESIAN_POINT ( 'NONE',  ( -1.614212418857619014, 0.000000000000000000, 0.000000000000000000 ) ) ;
#280 = AXIS2_PLACEMENT_3D ( 'NONE', #319, #91, #107 ) ;
#281 = VERTEX_POINT ( 'NONE', #20 ) ;
#282 = EDGE_LOOP ( 'NONE', ( #101, #28, #192, #1 ) ) ;
#283 = VERTEX_POINT ( 'NONE', #123 ) ;
#284 = PRODUCT ( 'QM-CAHWP-10-900-2100-M', 'QM-CAHWP-10-900-2100-M', '', ( #276 ) ) ;
#285 = VERTEX_POINT ( 'NONE', #146 ) ;
#286 = CC_DESIGN_DATE_AND_TIME_ASSIGNMENT ( #330, #70, ( #26 ) ) ;
#287 = EDGE_LOOP ( 'NONE', ( #76, #172, #171, #177 ) ) ;
#288 = APPLICATION_CONTEXT ( 'configuration controlled 3d designs of mechanical parts and assemblies' ) ;
#289 = CALENDAR_DATE ( 2021, 5, 1 ) ;
#290 = APPROVAL_PERSON_ORGANIZATION ( #17, #98, #68 ) ;
#291 = LINE ( 'NONE', #266, #25 ) ;
#292 = DIRECTION ( 'NONE',  ( 0.000000000000000000, 0.000000000000000000, 1.000000000000000000 ) ) ;
#293 = PERSON_AND_ORGANIZATION_ROLE ( 'classification_officer' ) ;
#294 = DIRECTION ( 'NONE',  ( 1.000000000000000000, 0.000000000000000000, 0.000000000000000000 ) ) ;
#295 = DIRECTION ( 'NONE',  ( 0.000000000000000000, 0.000000000000000000, 1.000000000000000000 ) ) ;
#296 = DIRECTION ( 'NONE',  ( -1.000000000000000000, -0.000000000000000000, -0.000000000000000000 ) ) ;
#297 = CARTESIAN_POINT ( 'NONE',  ( -3.000000000000000000, 0.000000000000000000, 0.000000000000000000 ) ) ;
#298 = CARTESIAN_POINT ( 'NONE',  ( -1.614212418857619014, 0.000000000000000000, 0.000000000000000000 ) ) ;
#299 = AXIS2_PLACEMENT_3D ( 'NONE', #22, #77, #81 ) ;
#300 = PRODUCT_RELATED_PRODUCT_CATEGORY ( 'detail', '', ( #284 ) ) ;
#301 = DIRECTION ( 'NONE',  ( 0.000000000000000000, 0.000000000000000000, 1.000000000000000000 ) ) ;
#302 = APPLICATION_PROTOCOL_DEFINITION ( 'international standard', 'config_control_design', 1994, #117 ) ;
#303 = APPROVAL ( #275, 'UNSPECIFIED' ) ;
#304 = CALENDAR_DATE ( 2021, 5, 1 ) ;
#305 = ORIENTED_EDGE ( 'NONE', *, *, #211, .F. ) ;
#306 = APPROVAL_STATUS ( 'not_yet_approved' ) ;
#307 = EDGE_LOOP ( 'NONE', ( #334, #99 ) ) ;
#308 = AXIS2_PLACEMENT_3D ( 'NONE', #160, #88, #317 ) ;
#309 = FACE_OUTER_BOUND ( 'NONE', #256, .T. ) ;
#310 = ORIENTED_EDGE ( 'NONE', *, *, #75, .F. ) ;
#311 = CARTESIAN_POINT ( 'NONE',  ( -0.5000000000000002220, 5.000000000000000000, 0.000000000000000000 ) ) ;
#312 = VERTEX_POINT ( 'NONE', #190 ) ;
#313 = FACE_BOUND ( 'NONE', #56, .T. ) ;
#314 = DIRECTION ( 'NONE',  ( -1.000000000000000000, -0.000000000000000000, -0.000000000000000000 ) ) ;
#315 = CIRCLE ( 'NONE', #159, 12.69999999999999929 ) ;
#316 = CIRCLE ( 'NONE', #308, 12.69999999999999929 ) ;
#317 = DIRECTION ( 'NONE',  ( 0.000000000000000000, 0.000000000000000000, 1.000000000000000000 ) ) ;
#318 = DIRECTION ( 'NONE',  ( -1.000000000000000000, -0.000000000000000000, -0.000000000000000000 ) ) ;
#319 = CARTESIAN_POINT ( 'NONE',  ( -3.000000000000000000, 0.000000000000000000, 0.000000000000000000 ) ) ;
#320 = FACE_OUTER_BOUND ( 'NONE', #264, .T. ) ;
#321 = ADVANCED_FACE ( 'NONE', ( #96 ), #217, .F. ) ;
#322 = CIRCLE ( 'NONE', #168, 5.000000000000000000 ) ;
#323 = DIRECTION ( 'NONE',  ( -1.000000000000000000, -0.000000000000000000, -0.000000000000000000 ) ) ;
#324 = PERSON_AND_ORGANIZATION_ROLE ( 'creator' ) ;
#325 = EDGE_CURVE ( 'NONE', #228, #281, #322, .T. ) ;
#326 = AXIS2_PLACEMENT_3D ( 'NONE', #16, #314, #295 ) ;
#327 =( NAMED_UNIT ( * ) PLANE_ANGLE_UNIT ( ) SI_UNIT ( $, .RADIAN. ) );
#328 = MANIFOLD_SOLID_BREP ( 'Ðý×', #145 ) ;
#329 = APPROVAL_PERSON_ORGANIZATION ( #124, #222, #254 ) ;
#330 = DATE_AND_TIME ( #122, #110 ) ;
#331 = ADVANCED_BREP_SHAPE_REPRESENTATION ( 'QM-CAHWP-10-900-2100-M', ( #328, #67 ), #169 ) ;
#332 = DIRECTION ( 'NONE',  ( 0.000000000000000000, 0.000000000000000000, 1.000000000000000000 ) ) ;
#333 = ORIENTED_EDGE ( 'NONE', *, *, #191, .T. ) ;
#334 = ORIENTED_EDGE ( 'NONE', *, *, #72, .F. ) ;
#335 = ORIENTED_EDGE ( 'NONE', *, *, #80, .T. ) ;
ENDSEC;
END-ISO-10303-21;
